lunes, 7 de abril de 2008

Mejor riff de la historia

Leído en Público. Lo tengo que verificar.


Qué quereis que os diga... prefiero este otro riff


3 comentarios:

Jesse dijo...

Lo mejor será comparar los riffs.

"Smoke on the water" (1972)

G A# c c#
e---------------------------------
B---------------------------------
G---------------------------------
D-5-8-10---5-8-11-10---5-8-10-8-5-
A-5-8-10---5-8-11-10---5-8-10-8-5-
E-3-6-8----3-6-9--8----3-6-8--6-3-

"Highway to hell" (1979)

A D/f# G D/f# G D/F# G D/F# A
e--------------------------------------
B-2-2-2---3-3-3---3-3-3--3-3-3-----2-2-
G-2-2-2---2-2-0---2-2-0--2-2-0--2--2-2-
D-2-2-2---0-0-0---0-0-0--0-0-0--0--2-2-
A-0-0-0----------------------------0-0-
E---------2-2-3---2-2-3--2-2-3--2------

Smoke on the water = 12 notas (3 acordes)
Highway to hell = 15 notas (4 acordes)

Personalmente prefiero el Smoke porque es algo más simple de tocar, porque me gustan más las canciones que comienzan por Sol ... y porque tiene tantos años como yo ;-)

1cualquiera dijo...

Gracias Jesse por tu puntualización técnica :-).

En cualquier caso, yo ambos los "toco igual"
manos en guitarra virtual y..
"na na naaa, na na na naaa, na na na na naaaaaa"

Silgo dijo...

No deja de chocarme ver a la gente sentadita y atenta en el concierto de Deep Purple, aunque sea en el 73.

Puestos a escoger uno de AC/DC, yo me quedo con este.

http://www.youtube.com/watch?v=Bomv-6CJSfM